ISO-10303-21;
HEADER;
FILE_DESCRIPTION (( 'STEP AP203' ),
    '1' );
FILE_NAME ('BK7-LPBSC-20-473.STEP',
    '2020-12-22T03:13:04',
    ( '' ),
    ( '' ),
    'SwSTEP 2.0',
    'SolidWorks 2020',
    '' );
FILE_SCHEMA (( 'CONFIG_CONTROL_DESIGN' ));
ENDSEC;

DATA;
#1 = EDGE_CURVE ( 'NONE', #151, #47, #132, .T. ) ;
#2 = LINE ( 'NONE', #85, #84 ) ;
#3 = PERSON_AND_ORGANIZATION_ROLE ( 'design_owner' ) ;
#4 = CARTESIAN_POINT ( 'NONE',  ( -9.999999999999998224, -10.00000000000000000, 10.00000000000000000 ) ) ;
#5 = FACE_OUTER_BOUND ( 'NONE', #70, .T. ) ;
#6 = DIRECTION ( 'NONE',  ( 1.000000000000000000, 0.000000000000000000, 0.000000000000000000 ) ) ;
#7 = AXIS2_PLACEMENT_3D ( 'NONE', #259, #219, #18 ) ;
#8 = AXIS2_PLACEMENT_3D ( 'NONE', #164, #222, #297 ) ;
#9 = AXIS2_PLACEMENT_3D ( 'NONE', #183, #270, #50 ) ;
#10 = EDGE_CURVE ( 'NONE', #196, #169, #261, .T. ) ;
#11 = PRODUCT ( 'BK7-LPBSC-20-473', 'BK7-LPBSC-20-473', '', ( #262 ) ) ;
#12 = ORIENTED_EDGE ( 'NONE', *, *, #93, .T. ) ;
#13 = ORIENTED_EDGE ( 'NONE', *, *, #254, .T. ) ;
#14 = CC_DESIGN_SECURITY_CLASSIFICATION ( #295, ( #267 ) ) ;
#15 = CARTESIAN_POINT ( 'NONE',  ( -9.999999999999998224, -10.00000000000000000, -10.00000000000000000 ) ) ;
#16 = VERTEX_POINT ( 'NONE', #41 ) ;
#17 = CARTESIAN_POINT ( 'NONE',  ( 10.00000000000000000, 10.00000000000000000, 10.00000000000000000 ) ) ;
#18 = DIRECTION ( 'NONE',  ( 1.000000000000000000, 0.000000000000000000, 0.000000000000000000 ) ) ;
#19 = ORIENTED_EDGE ( 'NONE', *, *, #119, .T. ) ;
#20 = DIRECTION ( 'NONE',  ( 0.7071067811865474617, -0.7071067811865475727, 0.000000000000000000 ) ) ;
#21 = ORIENTED_EDGE ( 'NONE', *, *, #1, .T. ) ;
#22 = APPROVAL_DATE_TIME ( #240, #25 ) ;
#23 = EDGE_CURVE ( 'NONE', #49, #47, #278, .T. ) ;
#24 = ORIENTED_EDGE ( 'NONE', *, *, #59, .T. ) ;
#25 = APPROVAL ( #314, 'UNSPECIFIED' ) ;
#26 = PLANE ( 'NONE',  #8 ) ;
#27 = DATE_AND_TIME ( #110, #53 ) ;
#28 = LINE ( 'NONE', #289, #275 ) ;
#29 = FACE_OUTER_BOUND ( 'NONE', #263, .T. ) ;
#30 = CARTESIAN_POINT ( 'NONE',  ( -9.999999999999998224, 10.00000000000000355, 10.00000000000000000 ) ) ;
#31 = AXIS2_PLACEMENT_3D ( 'NONE', #32, #227, #6 ) ;
#32 = CARTESIAN_POINT ( 'NONE',  ( 0.000000000000000000, 0.000000000000000000, 10.00000000000000000 ) ) ;
#33 = DIRECTION ( 'NONE',  ( 1.000000000000000000, -2.220446049250313081E-16, 0.000000000000000000 ) ) ;
#34 = PRODUCT_DEFINITION_SHAPE ( 'NONE', 'NONE',  #142 ) ;
#35 = ADVANCED_FACE ( 'NONE', ( #220 ), #320, .F. ) ;
#36 = VECTOR ( 'NONE', #48, 1000.000000000000000 ) ;
#37 = ADVANCED_FACE ( 'NONE', ( #239 ), #213, .F. ) ;
#38 = CLOSED_SHELL ( 'NONE', ( #37, #308, #98, #118, #35 ) ) ;
#39 = CC_DESIGN_PERSON_AND_ORGANIZATION_ASSIGNMENT ( #179, #127, ( #142 ) ) ;
#40 = ORIENTED_EDGE ( 'NONE', *, *, #23, .T. ) ;
#41 = CARTESIAN_POINT ( 'NONE',  ( -10.00000000000000178, -9.999999999999996447, 10.00000000000000000 ) ) ;
#42 = ORIENTED_EDGE ( 'NONE', *, *, #312, .T. ) ;
#43 = AXIS2_PLACEMENT_3D ( 'NONE', #186, #20, #80 ) ;
#44 = DIRECTION ( 'NONE',  ( -2.220446049250313081E-16, -1.000000000000000000, 0.000000000000000000 ) ) ;
#45 = ORIENTED_EDGE ( 'NONE', *, *, #230, .T. ) ;
#46 = DIRECTION ( 'NONE',  ( 0.000000000000000000, -0.000000000000000000, 1.000000000000000000 ) ) ;
#47 = VERTEX_POINT ( 'NONE', #317 ) ;
#48 = DIRECTION ( 'NONE',  ( -0.000000000000000000, -0.000000000000000000, -1.000000000000000000 ) ) ;
#49 = VERTEX_POINT ( 'NONE', #130 ) ;
#50 = DIRECTION ( 'NONE',  ( 0.000000000000000000, 0.000000000000000000, 1.000000000000000000 ) ) ;
#51 = CARTESIAN_POINT ( 'NONE',  ( 10.00000000000000178, 9.999999999999998224, 10.00000000000000000 ) ) ;
#52 = CALENDAR_DATE ( 2020, 22, 12 ) ;
#53 = LOCAL_TIME ( 11, 13, 4.000000000000000000, #207 ) ;
#54 = CARTESIAN_POINT ( 'NONE',  ( 0.000000000000000000, 0.000000000000000000, 10.00000000000000000 ) ) ;
#55 = APPROVAL_DATE_TIME ( #27, #260 ) ;
#56 =( LENGTH_UNIT ( ) NAMED_UNIT ( * ) SI_UNIT ( .MILLI., .METRE. ) );
#57 = APPLICATION_PROTOCOL_DEFINITION ( 'international standard', 'config_control_design', 1994, #228 ) ;
#58 = LINE ( 'NONE', #156, #251 ) ;
#59 = EDGE_CURVE ( 'NONE', #288, #145, #310, .T. ) ;
#60 = APPLICATION_CONTEXT ( 'configuration controlled 3d designs of mechanical parts and assemblies' ) ;
#61 = DIRECTION ( 'NONE',  ( 0.000000000000000000, 1.000000000000000000, 0.000000000000000000 ) ) ;
#62 = EDGE_CURVE ( 'NONE', #151, #288, #78, .T. ) ;
#63 = CC_DESIGN_PERSON_AND_ORGANIZATION_ASSIGNMENT ( #291, #113, ( #267 ) ) ;
#64 = CC_DESIGN_APPROVAL ( #274, ( #267 ) ) ;
#65 = VECTOR ( 'NONE', #216, 1000.000000000000000 ) ;
#66 =( GEOMETRIC_REPRESENTATION_CONTEXT ( 3 ) GLOBAL_UNCERTAINTY_ASSIGNED_CONTEXT ( ( #296 ) ) GLOBAL_UNIT_ASSIGNED_CONTEXT ( ( #56, #177, #107 ) ) REPRESENTATION_CONTEXT ( 'NONE', 'WORKASPACE' ) );
#67 = EDGE_LOOP ( 'NONE', ( #148, #168, #13, #313 ) ) ;
#68 = DIRECTION ( 'NONE',  ( -0.7071067811865474617, 0.7071067811865475727, 0.000000000000000000 ) ) ;
#69 = CARTESIAN_POINT ( 'NONE',  ( 10.00000000000000178, -10.00000000000000000, 10.00000000000000000 ) ) ;
#70 = EDGE_LOOP ( 'NONE', ( #45, #229, #123, #21 ) ) ;
#71 = CARTESIAN_POINT ( 'NONE',  ( -10.00000000000000178, -9.999999999999996447, -10.00000000000000000 ) ) ;
#72 = ORIENTED_EDGE ( 'NONE', *, *, #230, .F. ) ;
#73 = CARTESIAN_POINT ( 'NONE',  ( -9.999999999999998224, -10.00000000000000000, 10.00000000000000000 ) ) ;
#74 = CALENDAR_DATE ( 2020, 22, 12 ) ;
#75 = PLANE ( 'NONE',  #43 ) ;
#76 = PRODUCT_RELATED_PRODUCT_CATEGORY ( 'detail', '', ( #11 ) ) ;
#77 = EDGE_CURVE ( 'NONE', #16, #169, #194, .T. ) ;
#78 = LINE ( 'NONE', #101, #305 ) ;
#79 = APPROVAL_ROLE ( '' ) ;
#80 = DIRECTION ( 'NONE',  ( 0.7071067811865475727, 0.7071067811865474617, 0.000000000000000000 ) ) ;
#81 = FACE_OUTER_BOUND ( 'NONE', #198, .T. ) ;
#82 = APPLICATION_PROTOCOL_DEFINITION ( 'international standard', 'config_control_design', 1994, #60 ) ;
#83 = FACE_OUTER_BOUND ( 'NONE', #67, .T. ) ;
#84 = VECTOR ( 'NONE', #33, 1000.000000000000000 ) ;
#85 = CARTESIAN_POINT ( 'NONE',  ( 10.00000000000000000, 10.00000000000000000, -10.00000000000000000 ) ) ;
#86 = APPROVAL_DATE_TIME ( #223, #274 ) ;
#87 = CARTESIAN_POINT ( 'NONE',  ( 10.00000000000000178, -10.00000000000000000, 10.00000000000000000 ) ) ;
#88 = CARTESIAN_POINT ( 'NONE',  ( 10.00000000000000178, 9.999999999999998224, 10.00000000000000000 ) ) ;
#89 = FACE_OUTER_BOUND ( 'NONE', #200, .T. ) ;
#90 = AXIS2_PLACEMENT_3D ( 'NONE', #271, #61, #162 ) ;
#91 = SHAPE_DEFINITION_REPRESENTATION ( #34, #299 ) ;
#92 = CC_DESIGN_PERSON_AND_ORGANIZATION_ASSIGNMENT ( #293, #3, ( #11 ) ) ;
#93 = EDGE_CURVE ( 'NONE', #232, #49, #218, .T. ) ;
#94 = LOCAL_TIME ( 11, 13, 4.000000000000000000, #131 ) ;
#95 = AXIS2_PLACEMENT_3D ( 'NONE', #17, #68, #104 ) ;
#96 = ORIENTED_EDGE ( 'NONE', *, *, #304, .F. ) ;
#97 = LOCAL_TIME ( 11, 13, 4.000000000000000000, #204 ) ;
#98 = ADVANCED_FACE ( 'NONE', ( #108 ), #265, .F. ) ;
#99 = ORIENTED_EDGE ( 'NONE', *, *, #272, .T. ) ;
#100 = VERTEX_POINT ( 'NONE', #154 ) ;
#101 = CARTESIAN_POINT ( 'NONE',  ( 10.00000000000000178, 9.999999999999998224, 10.00000000000000000 ) ) ;
#102 = ORIENTED_EDGE ( 'NONE', *, *, #272, .F. ) ;
#103 = EDGE_CURVE ( 'NONE', #145, #49, #147, .T. ) ;
#104 = DIRECTION ( 'NONE',  ( 0.7071067811865475727, 0.7071067811865474617, 0.000000000000000000 ) ) ;
#105 = DATE_TIME_ROLE ( 'creation_date' ) ;
#106 = ORIENTED_EDGE ( 'NONE', *, *, #103, .T. ) ;
#107 =( NAMED_UNIT ( * ) SI_UNIT ( $, .STERADIAN. ) SOLID_ANGLE_UNIT ( ) );
#108 = FACE_OUTER_BOUND ( 'NONE', #252, .T. ) ;
#109 = DIRECTION ( 'NONE',  ( 0.000000000000000000, 0.000000000000000000, 1.000000000000000000 ) ) ;
#110 = CALENDAR_DATE ( 2020, 22, 12 ) ;
#111 = DIRECTION ( 'NONE',  ( -0.000000000000000000, 0.000000000000000000, -1.000000000000000000 ) ) ;
#112 = EDGE_CURVE ( 'NONE', #169, #215, #311, .T. ) ;
#113 = PERSON_AND_ORGANIZATION_ROLE ( 'creator' ) ;
#114 = LOCAL_TIME ( 11, 13, 4.000000000000000000, #175 ) ;
#115 = CARTESIAN_POINT ( 'NONE',  ( -9.999999999999998224, 10.00000000000000355, -10.00000000000000000 ) ) ;
#116 = FACE_OUTER_BOUND ( 'NONE', #238, .T. ) ;
#117 = ADVANCED_FACE ( 'NONE', ( #29 ), #268, .F. ) ;
#118 = ADVANCED_FACE ( 'NONE', ( #81 ), #137, .T. ) ;
#119 = EDGE_CURVE ( 'NONE', #288, #232, #301, .T. ) ;
#120 = APPROVAL_PERSON_ORGANIZATION ( #150, #274, #202 ) ;
#121 = ADVANCED_FACE ( 'NONE', ( #116 ), #26, .F. ) ;
#122 = CARTESIAN_POINT ( 'NONE',  ( 10.00000000000000178, 9.999999999999998224, -10.00000000000000000 ) ) ;
#123 = ORIENTED_EDGE ( 'NONE', *, *, #62, .F. ) ;
#124 = DIRECTION ( 'NONE',  ( 1.000000000000000000, 0.000000000000000000, 0.000000000000000000 ) ) ;
#125 = ORIENTED_EDGE ( 'NONE', *, *, #1, .F. ) ;
#126 = ORIENTED_EDGE ( 'NONE', *, *, #254, .F. ) ;
#127 = PERSON_AND_ORGANIZATION_ROLE ( 'creator' ) ;
#128 = CARTESIAN_POINT ( 'NONE',  ( 10.00000000000000000, 10.00000000000000000, 10.00000000000000000 ) ) ;
#129 = VECTOR ( 'NONE', #269, 1000.000000000000000 ) ;
#130 = CARTESIAN_POINT ( 'NONE',  ( 10.00000000000000178, -10.00000000000000000, -10.00000000000000000 ) ) ;
#131 = COORDINATED_UNIVERSAL_TIME_OFFSET ( 8, 0, .AHEAD. ) ;
#132 = LINE ( 'NONE', #51, #65 ) ;
#133 = CARTESIAN_POINT ( 'NONE',  ( -9.999999999999998224, -10.00000000000000000, 10.00000000000000000 ) ) ;
#134 = EDGE_CURVE ( 'NONE', #215, #196, #2, .T. ) ;
#135 = COORDINATED_UNIVERSAL_TIME_OFFSET ( 8, 0, .AHEAD. ) ;
#136 = CARTESIAN_POINT ( 'NONE',  ( 10.00000000000000000, 10.00000000000000000, 10.00000000000000000 ) ) ;
#137 = PLANE ( 'NONE',  #143 ) ;
#138 = LINE ( 'NONE', #321, #129 ) ;
#139 = AXIS2_PLACEMENT_3D ( 'NONE', #300, #140, #109 ) ;
#140 = DIRECTION ( 'NONE',  ( -1.000000000000000000, 0.000000000000000000, 0.000000000000000000 ) ) ;
#141 = CC_DESIGN_PERSON_AND_ORGANIZATION_ASSIGNMENT ( #237, #199, ( #295 ) ) ;
#142 = PRODUCT_DEFINITION ( 'UNKNOWN', '', #267, #184 ) ;
#143 = AXIS2_PLACEMENT_3D ( 'NONE', #54, #157, #249 ) ;
#144 = ORIENTED_EDGE ( 'NONE', *, *, #10, .T. ) ;
#145 = VERTEX_POINT ( 'NONE', #160 ) ;
#146 = APPROVAL_PERSON_ORGANIZATION ( #318, #260, #79 ) ;
#147 = LINE ( 'NONE', #15, #277 ) ;
#148 = ORIENTED_EDGE ( 'NONE', *, *, #112, .F. ) ;
#149 = DIRECTION ( 'NONE',  ( -0.000000000000000000, -0.000000000000000000, -1.000000000000000000 ) ) ;
#150 = PERSON_AND_ORGANIZATION ( #315, #192 ) ;
#151 = VERTEX_POINT ( 'NONE', #88 ) ;
#152 = CALENDAR_DATE ( 2020, 22, 12 ) ;
#153 = ORIENTED_EDGE ( 'NONE', *, *, #112, .T. ) ;
#154 = CARTESIAN_POINT ( 'NONE',  ( 10.00000000000000000, 10.00000000000000000, 10.00000000000000000 ) ) ;
#155 = DATE_AND_TIME ( #52, #94 ) ;
#156 = CARTESIAN_POINT ( 'NONE',  ( 10.00000000000000000, 10.00000000000000000, 10.00000000000000000 ) ) ;
#157 = DIRECTION ( 'NONE',  ( 0.000000000000000000, -0.000000000000000000, 1.000000000000000000 ) ) ;
#158 = DATE_AND_TIME ( #182, #97 ) ;
#159 = CARTESIAN_POINT ( 'NONE',  ( 10.00000000000000000, 10.00000000000000000, -10.00000000000000000 ) ) ;
#160 = CARTESIAN_POINT ( 'NONE',  ( -9.999999999999998224, -10.00000000000000000, -10.00000000000000000 ) ) ;
#161 = SECURITY_CLASSIFICATION_LEVEL ( 'unclassified' ) ;
#162 = DIRECTION ( 'NONE',  ( 0.000000000000000000, -0.000000000000000000, 1.000000000000000000 ) ) ;
#163 = VECTOR ( 'NONE', #209, 1000.000000000000000 ) ;
#164 = CARTESIAN_POINT ( 'NONE',  ( 0.000000000000000000, 0.000000000000000000, -10.00000000000000000 ) ) ;
#165 = CC_DESIGN_DATE_AND_TIME_ASSIGNMENT ( #158, #105, ( #142 ) ) ;
#166 = CLOSED_SHELL ( 'NONE', ( #306, #188, #117, #191, #121 ) ) ;
#167 = VECTOR ( 'NONE', #214, 1000.000000000000000 ) ;
#168 = ORIENTED_EDGE ( 'NONE', *, *, #77, .F. ) ;
#169 = VERTEX_POINT ( 'NONE', #189 ) ;
#170 = ORIENTED_EDGE ( 'NONE', *, *, #250, .F. ) ;
#171 = ORIENTED_EDGE ( 'NONE', *, *, #93, .F. ) ;
#172 = VECTOR ( 'NONE', #173, 1000.000000000000000 ) ;
#173 = DIRECTION ( 'NONE',  ( 2.220446049250313081E-16, 1.000000000000000000, 0.000000000000000000 ) ) ;
#174 = ORIENTED_EDGE ( 'NONE', *, *, #23, .F. ) ;
#175 = COORDINATED_UNIVERSAL_TIME_OFFSET ( 8, 0, .AHEAD. ) ;
#176 = ORIENTED_EDGE ( 'NONE', *, *, #304, .T. ) ;
#177 =( NAMED_UNIT ( * ) PLANE_ANGLE_UNIT ( ) SI_UNIT ( $, .RADIAN. ) );
#178 = CARTESIAN_POINT ( 'NONE',  ( 10.00000000000000000, 10.00000000000000000, 10.00000000000000000 ) ) ;
#179 = PERSON_AND_ORGANIZATION ( #315, #192 ) ;
#180 = DIRECTION ( 'NONE',  ( -0.7071067811865475727, -0.7071067811865474617, 0.000000000000000000 ) ) ;
#181 = LOCAL_TIME ( 11, 13, 4.000000000000000000, #135 ) ;
#182 = CALENDAR_DATE ( 2020, 22, 12 ) ;
#183 = CARTESIAN_POINT ( 'NONE',  ( -10.00000000000000178, -9.999999999999996447, 10.00000000000000000 ) ) ;
#184 = DESIGN_CONTEXT ( 'detailed design', #60, 'design' ) ;
#185 = PERSON_AND_ORGANIZATION_ROLE ( 'design_supplier' ) ;
#186 = CARTESIAN_POINT ( 'NONE',  ( 10.00000000000000178, 9.999999999999998224, 10.00000000000000000 ) ) ;
#187 = FACE_OUTER_BOUND ( 'NONE', #282, .T. ) ;
#188 = ADVANCED_FACE ( 'NONE', ( #187 ), #273, .F. ) ;
#189 = CARTESIAN_POINT ( 'NONE',  ( -10.00000000000000178, -9.999999999999996447, -10.00000000000000000 ) ) ;
#190 = VECTOR ( 'NONE', #286, 1000.000000000000000 ) ;
#191 = ADVANCED_FACE ( 'NONE', ( #89 ), #248, .T. ) ;
#192 = ORGANIZATION ( 'UNSPECIFIED', 'UNSPECIFIED', '' ) ;
#193 = EDGE_LOOP ( 'NONE', ( #195, #96, #42, #241 ) ) ;
#194 = LINE ( 'NONE', #281, #167 ) ;
#195 = ORIENTED_EDGE ( 'NONE', *, *, #10, .F. ) ;
#196 = VERTEX_POINT ( 'NONE', #159 ) ;
#197 = ORIENTED_EDGE ( 'NONE', *, *, #134, .F. ) ;
#198 = EDGE_LOOP ( 'NONE', ( #256, #231, #126 ) ) ;
#199 = PERSON_AND_ORGANIZATION_ROLE ( 'classification_officer' ) ;
#200 = EDGE_LOOP ( 'NONE', ( #316, #19, #99 ) ) ;
#201 = DIRECTION ( 'NONE',  ( -0.7071067811865475727, -0.7071067811865474617, 0.000000000000000000 ) ) ;
#202 = APPROVAL_ROLE ( '' ) ;
#203 = EDGE_CURVE ( 'NONE', #212, #100, #58, .T. ) ;
#204 = COORDINATED_UNIVERSAL_TIME_OFFSET ( 8, 0, .AHEAD. ) ;
#205 = DIRECTION ( 'NONE',  ( -0.000000000000000000, 1.000000000000000000, -0.000000000000000000 ) ) ;
#206 = VECTOR ( 'NONE', #111, 1000.000000000000000 ) ;
#207 = COORDINATED_UNIVERSAL_TIME_OFFSET ( 8, 0, .AHEAD. ) ;
#208 = LINE ( 'NONE', #221, #206 ) ;
#209 = DIRECTION ( 'NONE',  ( 1.000000000000000000, 0.000000000000000000, 0.000000000000000000 ) ) ;
#210 = VECTOR ( 'NONE', #180, 1000.000000000000000 ) ;
#211 = CC_DESIGN_PERSON_AND_ORGANIZATION_ASSIGNMENT ( #298, #185, ( #267 ) ) ;
#212 = VERTEX_POINT ( 'NONE', #30 ) ;
#213 = PLANE ( 'NONE',  #95 ) ;
#214 = DIRECTION ( 'NONE',  ( -0.000000000000000000, 0.000000000000000000, -1.000000000000000000 ) ) ;
#215 = VERTEX_POINT ( 'NONE', #115 ) ;
#216 = DIRECTION ( 'NONE',  ( -0.000000000000000000, -0.000000000000000000, -1.000000000000000000 ) ) ;
#217 = DATE_TIME_ROLE ( 'classification_date' ) ;
#218 = LINE ( 'NONE', #69, #307 ) ;
#219 = DIRECTION ( 'NONE',  ( 0.000000000000000000, 0.000000000000000000, 1.000000000000000000 ) ) ;
#220 = FACE_OUTER_BOUND ( 'NONE', #235, .T. ) ;
#221 = CARTESIAN_POINT ( 'NONE',  ( -9.999999999999998224, 10.00000000000000355, 10.00000000000000000 ) ) ;
#222 = DIRECTION ( 'NONE',  ( -0.000000000000000000, 0.000000000000000000, 1.000000000000000000 ) ) ;
#223 = DATE_AND_TIME ( #74, #181 ) ;
#224 = CC_DESIGN_APPROVAL ( #260, ( #142 ) ) ;
#225 = AXIS2_PLACEMENT_3D ( 'NONE', #283, #46, #290 ) ;
#226 = CARTESIAN_POINT ( 'NONE',  ( -10.00000000000000178, -9.999999999999996447, 10.00000000000000000 ) ) ;
#227 = DIRECTION ( 'NONE',  ( -0.000000000000000000, 0.000000000000000000, 1.000000000000000000 ) ) ;
#228 = APPLICATION_CONTEXT ( 'configuration controlled 3d designs of mechanical parts and assemblies' ) ;
#229 = ORIENTED_EDGE ( 'NONE', *, *, #59, .F. ) ;
#230 = EDGE_CURVE ( 'NONE', #47, #145, #138, .T. ) ;
#231 = ORIENTED_EDGE ( 'NONE', *, *, #203, .F. ) ;
#232 = VERTEX_POINT ( 'NONE', #87 ) ;
#233 = APPROVAL_PERSON_ORGANIZATION ( #243, #25, #287 ) ;
#234 = DIRECTION ( 'NONE',  ( 0.000000000000000000, 0.000000000000000000, 1.000000000000000000 ) ) ;
#235 = EDGE_LOOP ( 'NONE', ( #144, #153, #309 ) ) ;
#236 = DIRECTION ( 'NONE',  ( -0.000000000000000000, 1.000000000000000000, -0.000000000000000000 ) ) ;
#237 = PERSON_AND_ORGANIZATION ( #315, #192 ) ;
#238 = EDGE_LOOP ( 'NONE', ( #72, #174, #253 ) ) ;
#239 = FACE_OUTER_BOUND ( 'NONE', #193, .T. ) ;
#240 = DATE_AND_TIME ( #152, #114 ) ;
#241 = ORIENTED_EDGE ( 'NONE', *, *, #77, .T. ) ;
#242 = VECTOR ( 'NONE', #236, 1000.000000000000000 ) ;
#243 = PERSON_AND_ORGANIZATION ( #315, #192 ) ;
#244 = PLANE ( 'NONE',  #9 ) ;
#245 = APPROVAL_STATUS ( 'not_yet_approved' ) ;
#246 = APPROVAL_STATUS ( 'not_yet_approved' ) ;
#247 = DIRECTION ( 'NONE',  ( 1.000000000000000000, -2.220446049250313081E-16, 0.000000000000000000 ) ) ;
#248 = PLANE ( 'NONE',  #31 ) ;
#249 = DIRECTION ( 'NONE',  ( 2.220446049250313081E-16, 1.000000000000000000, 0.000000000000000000 ) ) ;
#250 = EDGE_CURVE ( 'NONE', #212, #215, #208, .T. ) ;
#251 = VECTOR ( 'NONE', #247, 1000.000000000000000 ) ;
#252 = EDGE_LOOP ( 'NONE', ( #197, #170, #279, #176 ) ) ;
#253 = ORIENTED_EDGE ( 'NONE', *, *, #103, .F. ) ;
#254 = EDGE_CURVE ( 'NONE', #16, #212, #292, .T. ) ;
#255 = CARTESIAN_POINT ( 'NONE',  ( 10.00000000000000000, 10.00000000000000000, -10.00000000000000000 ) ) ;
#256 = ORIENTED_EDGE ( 'NONE', *, *, #312, .F. ) ;
#257 = CC_DESIGN_APPROVAL ( #25, ( #295 ) ) ;
#258 = AXIS2_PLACEMENT_3D ( 'NONE', #178, #44, #234 ) ;
#259 = CARTESIAN_POINT ( 'NONE',  ( 0.000000000000000000, 0.000000000000000000, 0.000000000000000000 ) ) ;
#260 = APPROVAL ( #245, 'UNSPECIFIED' ) ;
#261 = LINE ( 'NONE', #255, #190 ) ;
#262 = MECHANICAL_CONTEXT ( 'NONE', #228, 'mechanical' ) ;
#263 = EDGE_LOOP ( 'NONE', ( #40, #125, #102, #12 ) ) ;
#264 = DIRECTION ( 'NONE',  ( 2.220446049250313081E-16, 1.000000000000000000, 0.000000000000000000 ) ) ;
#265 = PLANE ( 'NONE',  #258 ) ;
#266 = LINE ( 'NONE', #128, #210 ) ;
#267 = PRODUCT_DEFINITION_FORMATION_WITH_SPECIFIED_SOURCE ( 'ANY', '', #11, .NOT_KNOWN. ) ;
#268 = PLANE ( 'NONE',  #139 ) ;
#269 = DIRECTION ( 'NONE',  ( -0.7071067811865475727, -0.7071067811865474617, 0.000000000000000000 ) ) ;
#270 = DIRECTION ( 'NONE',  ( 1.000000000000000000, -2.220446049250313081E-16, 0.000000000000000000 ) ) ;
#271 = CARTESIAN_POINT ( 'NONE',  ( -9.999999999999998224, -10.00000000000000000, 10.00000000000000000 ) ) ;
#272 = EDGE_CURVE ( 'NONE', #232, #151, #28, .T. ) ;
#273 = PLANE ( 'NONE',  #90 ) ;
#274 = APPROVAL ( #246, 'UNSPECIFIED' ) ;
#275 = VECTOR ( 'NONE', #205, 1000.000000000000000 ) ;
#276 = MANIFOLD_SOLID_BREP ( '¾µÏ', #38 ) ;
#277 = VECTOR ( 'NONE', #124, 1000.000000000000000 ) ;
#278 = LINE ( 'NONE', #122, #242 ) ;
#279 = ORIENTED_EDGE ( 'NONE', *, *, #203, .T. ) ;
#280 = MANIFOLD_SOLID_BREP ( 'Í¹Ì¨-À', #166 ) ;
#281 = CARTESIAN_POINT ( 'NONE',  ( -10.00000000000000178, -9.999999999999996447, 10.00000000000000000 ) ) ;
#282 = EDGE_LOOP ( 'NONE', ( #106, #171, #284, #24 ) ) ;
#283 = CARTESIAN_POINT ( 'NONE',  ( 0.000000000000000000, 0.000000000000000000, -10.00000000000000000 ) ) ;
#284 = ORIENTED_EDGE ( 'NONE', *, *, #119, .F. ) ;
#285 = VECTOR ( 'NONE', #319, 1000.000000000000000 ) ;
#286 = DIRECTION ( 'NONE',  ( -0.7071067811865475727, -0.7071067811865474617, 0.000000000000000000 ) ) ;
#287 = APPROVAL_ROLE ( '' ) ;
#288 = VERTEX_POINT ( 'NONE', #133 ) ;
#289 = CARTESIAN_POINT ( 'NONE',  ( 10.00000000000000178, 9.999999999999998224, 10.00000000000000000 ) ) ;
#290 = DIRECTION ( 'NONE',  ( 2.220446049250313081E-16, 1.000000000000000000, 0.000000000000000000 ) ) ;
#291 = PERSON_AND_ORGANIZATION ( #315, #192 ) ;
#292 = LINE ( 'NONE', #226, #303 ) ;
#293 = PERSON_AND_ORGANIZATION ( #315, #192 ) ;
#294 = LINE ( 'NONE', #136, #285 ) ;
#295 = SECURITY_CLASSIFICATION ( '', '', #161 ) ;
#296 = UNCERTAINTY_MEASURE_WITH_UNIT (LENGTH_MEASURE( 1.000000000000000082E-05 ), #56, 'distance_accuracy_value', 'NONE');
#297 = DIRECTION ( 'NONE',  ( 1.000000000000000000, 0.000000000000000000, 0.000000000000000000 ) ) ;
#298 = PERSON_AND_ORGANIZATION ( #315, #192 ) ;
#299 = ADVANCED_BREP_SHAPE_REPRESENTATION ( 'BK7-LPBSC-20-473', ( #280, #276, #7 ), #66 ) ;
#300 = CARTESIAN_POINT ( 'NONE',  ( 10.00000000000000178, 9.999999999999998224, 10.00000000000000000 ) ) ;
#301 = LINE ( 'NONE', #4, #163 ) ;
#302 = CC_DESIGN_DATE_AND_TIME_ASSIGNMENT ( #155, #217, ( #295 ) ) ;
#303 = VECTOR ( 'NONE', #264, 1000.000000000000000 ) ;
#304 = EDGE_CURVE ( 'NONE', #100, #196, #294, .T. ) ;
#305 = VECTOR ( 'NONE', #201, 1000.000000000000000 ) ;
#306 = ADVANCED_FACE ( 'NONE', ( #5 ), #75, .F. ) ;
#307 = VECTOR ( 'NONE', #149, 1000.000000000000000 ) ;
#308 = ADVANCED_FACE ( 'NONE', ( #83 ), #244, .F. ) ;
#309 = ORIENTED_EDGE ( 'NONE', *, *, #134, .T. ) ;
#310 = LINE ( 'NONE', #73, #36 ) ;
#311 = LINE ( 'NONE', #71, #172 ) ;
#312 = EDGE_CURVE ( 'NONE', #100, #16, #266, .T. ) ;
#313 = ORIENTED_EDGE ( 'NONE', *, *, #250, .T. ) ;
#314 = APPROVAL_STATUS ( 'not_yet_approved' ) ;
#315 = PERSON ( 'UNSPECIFIED', 'UNSPECIFIED', 'UNSPECIFIED', ('UNSPECIFIED'), ('UNSPECIFIED'), ('UNSPECIFIED') ) ;
#316 = ORIENTED_EDGE ( 'NONE', *, *, #62, .T. ) ;
#317 = CARTESIAN_POINT ( 'NONE',  ( 10.00000000000000178, 9.999999999999998224, -10.00000000000000000 ) ) ;
#318 = PERSON_AND_ORGANIZATION ( #315, #192 ) ;
#319 = DIRECTION ( 'NONE',  ( -0.000000000000000000, 0.000000000000000000, -1.000000000000000000 ) ) ;
#320 = PLANE ( 'NONE',  #225 ) ;
#321 = CARTESIAN_POINT ( 'NONE',  ( 10.00000000000000178, 9.999999999999998224, -10.00000000000000000 ) ) ;
ENDSEC;
END-ISO-10303-21;
